  0
SECTION
  2
HEADER
  9
$ACADVER
  1
AC1015
  9
$ACADMAINTVER
 70
     6
  9
$DWGCODEPAGE
  3
ANSI_1254
  9
$INSBASE
 10
0.0
 20
0.0
 30
0.0
  9
$EXTMIN
 10
0.0
 20
0.0
 30
0.0
  9
$EXTMAX
 10
279.4
 20
215.9
 30
0.0
  9
$LIMMIN
 10
0.0
 20
0.0
  9
$LIMMAX
 10
279.4
 20
215.9
  9
$ORTHOMODE
 70
     0
  9
$REGENMODE
 70
     1
  9
$FILLMODE
 70
     1
  9
$QTEXTMODE
 70
     0
  9
$MIRRTEXT
 70
     1
  9
$LTSCALE
 40
1.0
  9
$ATTMODE
 70
     1
  9
$TEXTSIZE
 40
3.5
  9
$TRACEWID
 40
1.0
  9
$TEXTSTYLE
  7
Standard
  9
$CLAYER
  8
0
  9
$CELTYPE
  6
ByLayer
  9
$CECOLOR
 62
   256
  9
$CELTSCALE
 40
1.0
  9
$DISPSILH
 70
     0
  9
$DIMSCALE
 40
1.0
  9
$DIMASZ
 40
3.5
  9
$DIMEXO
 40
1.0
  9
$DIMDLI
 40
3.75
  9
$DIMRND
 40
0.0
  9
$DIMDLE
 40
0.0
  9
$DIMEXE
 40
1.0
  9
$DIMTP
 40
0.0
  9
$DIMTM
 40
0.0
  9
$DIMTXT
 40
3.5
  9
$DIMCEN
 40
2.5
  9
$DIMTSZ
 40
0.0
  9
$DIMTOL
 70
     0
  9
$DIMLIM
 70
     0
  9
$DIMTIH
 70
     1
  9
$DIMTOH
 70
     1
  9
$DIMSE1
 70
     0
  9
$DIMSE2
 70
     0
  9
$DIMTAD
 70
     1
  9
$DIMZIN
 70
     0
  9
$DIMBLK
  1

  9
$DIMASO
 70
     1
  9
$DIMSHO
 70
     1
  9
$DIMPOST
  1

  9
$DIMAPOST
  1

  9
$DIMALT
 70
     0
  9
$DIMALTD
 70
     3
  9
$DIMALTF
 40
0.0393700787
  9
$DIMLFAC
 40
1.0
  9
$DIMTOFL
 70
     1
  9
$DIMTVP
 40
0.0
  9
$DIMTIX
 70
     0
  9
$DIMSOXD
 70
     0
  9
$DIMSAH
 70
     0
  9
$DIMBLK1
  1

  9
$DIMBLK2
  1

  9
$DIMSTYLE
  2
ISO-25
  9
$DIMCLRD
 70
     0
  9
$DIMCLRE
 70
     0
  9
$DIMCLRT
 70
     0
  9
$DIMTFAC
 40
1.0
  9
$DIMGAP
 40
1.524
  9
$DIMJUST
 70
     0
  9
$DIMSD1
 70
     0
  9
$DIMSD2
 70
     0
  9
$DIMTOLJ
 70
     0
  9
$DIMTZIN
 70
     0
  9
$DIMALTZ
 70
     0
  9
$DIMALTTZ
 70
     0
  9
$DIMUPT
 70
     0
  9
$DIMDEC
 70
     2
  9
$DIMTDEC
 70
     2
  9
$DIMALTU
 70
     2
  9
$DIMALTTD
 70
     3
  9
$DIMTXSTY
  7
Standard
  9
$DIMAUNIT
 70
     0
  9
$DIMADEC
 70
     2
  9
$DIMALTRND
 40
0.0
  9
$DIMAZIN
 70
     0
  9
$DIMDSEP
 70
    44
  9
$DIMATFIT
 70
     3
  9
$DIMFRAC
 70
     0
  9
$DIMLDRBLK
  1

  9
$DIMLUNIT
 70
     2
  9
$DIMLWD
 70
    -2
  9
$DIMLWE
 70
    -2
  9
$DIMTMOVE
 70
     0
  9
$LUNITS
 70
     2
  9
$LUPREC
 70
     2
  9
$SKETCHINC
 40
1.0
  9
$FILLETRAD
 40
10.0
  9
$AUNITS
 70
     0
  9
$AUPREC
 70
     2
  9
$MENU
  1
.
  9
$ELEVATION
 40
0.0
  9
$PELEVATION
 40
0.0
  9
$THICKNESS
 40
0.0
  9
$LIMCHECK
 70
     0
  9
$CHAMFERA
 40
0.0
  9
$CHAMFERB
 40
0.0
  9
$CHAMFERC
 40
0.0
  9
$CHAMFERD
 40
0.0
  9
$SKPOLY
 70
     0
  9
$TDCREATE
 40
2458985.65113728
  9
$TDUCREATE
 40
2458985.52613728
  9
$TDUPDATE
 40
2458985.651137535
  9
$TDUUPDATE
 40
2458985.526137535
  9
$TDINDWG
 40
0.0000000116
  9
$TDUSRTIMER
 40
0.0000000116
  9
$USRTIMER
 70
     1
  9
$ANGBASE
 50
0.0
  9
$ANGDIR
 70
     0
  9
$PDMODE
 70
     0
  9
$PDSIZE
 40
-1.0
  9
$PLINEWID
 40
0.0
  9
$SPLFRAME
 70
     0
  9
$SPLINETYPE
 70
     6
  9
$SPLINESEGS
 70
     8
  9
$HANDSEED
  5
BF
  9
$SURFTAB1
 70
     6
  9
$SURFTAB2
 70
     6
  9
$SURFTYPE
 70
     6
  9
$SURFU
 70
     6
  9
$SURFV
 70
     6
  9
$UCSBASE
  2

  9
$UCSNAME
  2

  9
$UCSORG
 10
0.0
 20
0.0
 30
0.0
  9
$UCSXDIR
 10
1.0
 20
0.0
 30
0.0
  9
$UCSYDIR
 10
0.0
 20
1.0
 30
0.0
  9
$UCSORTHOREF
  2

  9
$UCSORTHOVIEW
 70
     0
  9
$UCSORGTOP
 10
0.0
 20
0.0
 30
0.0
  9
$UCSORGBOTTOM
 10
0.0
 20
0.0
 30
0.0
  9
$UCSORGLEFT
 10
0.0
 20
0.0
 30
0.0
  9
$UCSORGRIGHT
 10
0.0
 20
0.0
 30
0.0
  9
$UCSORGFRONT
 10
0.0
 20
0.0
 30
0.0
  9
$UCSORGBACK
 10
0.0
 20
0.0
 30
0.0
  9
$PUCSBASE
  2

  9
$PUCSNAME
  2

  9
$PUCSORG
 10
0.0
 20
0.0
 30
0.0
  9
$PUCSXDIR
 10
1.0
 20
0.0
 30
0.0
  9
$PUCSYDIR
 10
0.0
 20
1.0
 30
0.0
  9
$PUCSORTHOREF
  2

  9
$PUCSORTHOVIEW
 70
     0
  9
$PUCSORGTOP
 10
0.0
 20
0.0
 30
0.0
  9
$PUCSORGBOTTOM
 10
0.0
 20
0.0
 30
0.0
  9
$PUCSORGLEFT
 10
0.0
 20
0.0
 30
0.0
  9
$PUCSORGRIGHT
 10
0.0
 20
0.0
 30
0.0
  9
$PUCSORGFRONT
 10
0.0
 20
0.0
 30
0.0
  9
$PUCSORGBACK
 10
0.0
 20
0.0
 30
0.0
  9
$USERI1
 70
     0
  9
$USERI2
 70
     0
  9
$USERI3
 70
     0
  9
$USERI4
 70
     0
  9
$USERI5
 70
     0
  9
$USERR1
 40
0.0
  9
$USERR2
 40
0.0
  9
$USERR3
 40
0.0
  9
$USERR4
 40
0.0
  9
$USERR5
 40
0.0
  9
$WORLDVIEW
 70
     1
  9
$SHADEDGE
 70
     3
  9
$SHADEDIF
 70
    70
  9
$TILEMODE
 70
     1
  9
$MAXACTVP
 70
    64
  9
$PINSBASE
 10
0.0
 20
0.0
 30
0.0
  9
$PLIMCHECK
 70
     0
  9
$PEXTMIN
 10
1.0000000000E+20
 20
1.0000000000E+20
 30
1.0000000000E+20
  9
$PEXTMAX
 10
-1.0000000000E+20
 20
-1.0000000000E+20
 30
-1.0000000000E+20
  9
$PLIMMIN
 10
0.0
 20
0.0
  9
$PLIMMAX
 10
420.0
 20
297.0
  9
$UNITMODE
 70
     0
  9
$VISRETAIN
 70
     1
  9
$PLINEGEN
 70
     0
  9
$PSLTSCALE
 70
     1
  9
$TREEDEPTH
 70
  3020
  9
$CMLSTYLE
  2
Standard
  9
$CMLJUST
 70
     0
  9
$CMLSCALE
 40
20.0
  9
$PROXYGRAPHICS
 70
     1
  9
$MEASUREMENT
 70
     1
  9
$CELWEIGHT
370
    -1
  9
$ENDCAPS
280
     0
  9
$JOINSTYLE
280
     0
  9
$LWDISPLAY
290
     1
  9
$INSUNITS
 70
     4
  9
$HYPERLINKBASE
  1

  9
$STYLESHEET
  1

  9
$XEDIT
290
     1
  9
$CEPSNTYPE
380
     0
  9
$PSTYLEMODE
290
     1
  9
$FINGERPRINTGUID
  2
{5d23f980-94fd-4f9f-8399-a2dfdd6c99db}
  9
$VERSIONGUID
  2
{FAEB1C32-E019-11D5-929B-00C0DF256EC4}
  9
$EXTNAMES
290
     1
  9
$PSVPSCALE
 40
0.0
  9
$OLESTARTUP
290
     0
  0
ENDSEC
  0
SECTION
  2
CLASSES
  0
CLASS
  1
ACDBDICTIONARYWDFLT
  2
AcDbDictionaryWithDefault
  3
ObjectDBX Classes
 90
        0
280
     0
281
     0
  0
CLASS
  1
VISUALSTYLE
  2
AcDbVisualStyle
  3
ObjectDBX Classes
 90
     4095
280
     0
281
     0
  0
CLASS
  1
MATERIAL
  2
AcDbMaterial
  3
ObjectDBX Classes
 90
     1153
280
     0
281
     0
  0
CLASS
  1
SCALE
  2
AcDbScale
  3
ObjectDBX Classes
 90
     1153
280
     0
281
     0
  0
CLASS
  1
TABLESTYLE
  2
AcDbTableStyle
  3
ObjectDBX Classes
 90
     4095
280
     0
281
     0
  0
CLASS
  1
MLEADERSTYLE
  2
AcDbMLeaderStyle
  3
ACDB_MLEADERSTYLE_CLASS
 90
     4095
280
     0
281
     0
  0
CLASS
  1
SUN
  2
AcDbSun
  3
SCENEOE
 90
     1153
280
     0
281
     0
  0
CLASS
  1
ACDBPLACEHOLDER
  2
AcDbPlaceHolder
  3
ObjectDBX Classes
 90
        0
280
     0
281
     0
  0
CLASS
  1
LAYOUT
  2
AcDbLayout
  3
ObjectDBX Classes
 90
        0
280
     0
281
     0
  0
ENDSEC
  0
SECTION
  2
TABLES
  0
TABLE
  2
VPORT
  5
8
330
0
100
AcDbSymbolTable
 70
     1
  0
VPORT
  5
29
330
8
100
AcDbSymbolTableRecord
100
AcDbViewportTableRecord
  2
*Active
 70
     0
 10
0.0
 20
0.0
 11
1.0
 21
1.0
 12
139.7
 22
107.95
 13
0.0
 23
0.0
 14
10.0
 24
10.0
 15
10.0
 25
10.0
 16
0.0
 26
0.0
 36
1.0
 17
0.0
 27
0.0
 37
0.0
 40
215.9
 41
1.2941176471
 42
50.0
 43
0.0
 44
0.0
 50
0.0
 51
0.0
 71
     0
 72
  2000
 73
     1
 74
     3
 75
     0
 76
     0
 77
     0
 78
     0
281
     0
 65
     1
110
0.0
120
0.0
130
0.0
111
1.0
121
0.0
131
0.0
112
0.0
122
1.0
132
0.0
 79
     0
146
0.0
  0
ENDTAB
  0
TABLE
  2
LTYPE
  5
5
330
0
100
AcDbSymbolTable
 70
     6
  0
LTYPE
  5
14
330
5
100
AcDbSymbolTableRecord
100
AcDbLinetypeTableRecord
  2
ByBlock
 70
     0
  3

 72
    65
 73
     0
 40
0.0
  0
LTYPE
  5
15
330
5
100
AcDbSymbolTableRecord
100
AcDbLinetypeTableRecord
  2
ByLayer
 70
     0
  3

 72
    65
 73
     0
 40
0.0
  0
LTYPE
  5
16
330
5
100
AcDbSymbolTableRecord
100
AcDbLinetypeTableRecord
  2
Continuous
 70
     0
  3
Solid line
 72
    65
 73
     0
 40
0.0
  0
LTYPE
  5
6E
330
5
100
AcDbSymbolTableRecord
100
AcDbLinetypeTableRecord
  2
HIDDEN
 70
     0
  3
Hidden __ __ __ __ __ __ __ __ __ __ __ __ __ __
 72
    65
 73
     2
 40
1.905
 49
1.27
 74
     0
 49
-0.635
 74
     0
  0
LTYPE
  5
6F
330
5
100
AcDbSymbolTableRecord
100
AcDbLinetypeTableRecord
  2
PHANTOM
 70
     0
  3
Phantom ______  __  __  ______  __  __  ______
 72
    65
 73
     6
 40
12.7
 49
6.35
 74
     0
 49
-1.27
 74
     0
 49
1.27
 74
     0
 49
-1.27
 74
     0
 49
1.27
 74
     0
 49
-1.27
 74
     0
  0
LTYPE
  5
70
330
5
100
AcDbSymbolTableRecord
100
AcDbLinetypeTableRecord
  2
CENTER
 70
     0
  3
Center ____ _ ____ _ ____ _ ____ _ ____ _ ____
 72
    65
 73
     4
 40
10.16
 49
6.35
 74
     0
 49
-1.27
 74
     0
 49
1.27
 74
     0
 49
-1.27
 74
     0
  0
LTYPE
  5
71
330
5
100
AcDbSymbolTableRecord
100
AcDbLinetypeTableRecord
  2
CENTERX2
 70
     0
  3
Center (2x) ________  __  ________  __  _____
 72
    65
 73
     4
 40
20.32
 49
12.7
 74
     0
 49
-2.54
 74
     0
 49
2.54
 74
     0
 49
-2.54
 74
     0
  0
LTYPE
  5
72
330
5
100
AcDbSymbolTableRecord
100
AcDbLinetypeTableRecord
  2
DOT2
 70
     0
  3
Dot (.5x) ........................................
 72
    65
 73
     2
 40
0.635
 49
0.0
 74
     0
 49
-0.635
 74
     0
  0
ENDTAB
  0
TABLE
  2
LAYER
  5
2
330
0
100
AcDbSymbolTable
 70
    17
  0
LAYER
  5
10
330
2
100
AcDbSymbolTableRecord
100
AcDbLayerTableRecord
  2
0
 70
     0
 62
     7
  6
Continuous
370
    -3
390
F
  0
LAYER
  5
73
330
2
100
AcDbSymbolTableRecord
100
AcDbLayerTableRecord
  2
FORMAT
 70
     0
 62
     7
  6
Continuous
370
    -3
390
F
  0
LAYER
  5
74
330
2
100
AcDbSymbolTableRecord
100
AcDbLayerTableRecord
  2
YARDIMCI_GEOMETRI
 70
     0
 62
    -6
  6
Continuous
290
     0
370
    -3
390
F
  0
LAYER
  5
75
330
2
100
AcDbSymbolTableRecord
100
AcDbLayerTableRecord
  2
SAYFA_CERCEVESI
 70
     0
 62
     7
  6
Continuous
370
    25
390
F
  0
LAYER
  5
76
330
2
100
AcDbSymbolTableRecord
100
AcDbLayerTableRecord
  2
ANTET
 70
     0
 62
     7
  6
Continuous
370
    -3
390
F
  0
LAYER
  5
77
330
2
100
AcDbSymbolTableRecord
100
AcDbLayerTableRecord
  2
OLCU
 70
     0
 62
   150
  6
Continuous
370
    -3
390
F
  0
LAYER
  5
78
330
2
100
AcDbSymbolTableRecord
100
AcDbLayerTableRecord
  2
METIN
 70
     0
 62
    96
  6
Continuous
370
    -3
390
F
  0
LAYER
  5
79
330
2
100
AcDbSymbolTableRecord
100
AcDbLayerTableRecord
  2
BALON
 70
     0
 62
     5
  6
Continuous
370
    -3
390
F
  0
LAYER
  5
7A
330
2
100
AcDbSymbolTableRecord
100
AcDbLayerTableRecord
  2
VURGU
 70
     0
 62
     7
  6
Continuous
370
    -3
390
F
  0
LAYER
  5
7B
330
2
100
AcDbSymbolTableRecord
100
AcDbLayerTableRecord
  2
SILIK
 70
     0
 62
     7
  6
Continuous
370
    -3
390
F
  0
LAYER
  5
7C
330
2
100
AcDbSymbolTableRecord
100
AcDbLayerTableRecord
  2
MODEL
 70
     0
 62
     7
  6
Continuous
370
    -3
390
F
  0
LAYER
  5
7D
330
2
100
AcDbSymbolTableRecord
100
AcDbLayerTableRecord
  2
DETAYLANDıRMA
 70
     0
 62
   190
  6
Continuous
370
    -3
390
F
  0
LAYER
  5
7E
330
2
100
AcDbSymbolTableRecord
100
AcDbLayerTableRecord
  2
TOLERANS
 70
     0
 62
   230
  6
Continuous
370
    -3
390
F
  0
LAYER
  5
7F
330
2
100
AcDbSymbolTableRecord
100
AcDbLayerTableRecord
  2
MERKEZ_CIZGILERI
 70
     0
 62
    30
  6
Continuous
370
    -3
390
F
  0
LAYER
  5
80
330
2
100
AcDbSymbolTableRecord
100
AcDbLayerTableRecord
  2
KESIT-DETAY_CIZGILERI
 70
     0
 62
     7
  6
Continuous
370
    -3
390
F
  0
LAYER
  5
81
330
2
100
AcDbSymbolTableRecord
100
AcDbLayerTableRecord
  2
\U+041E\U+0421\U+0415\U+0412\U+042B\U+0415
 70
     0
 62
     7
  6
Continuous
370
    -3
390
F
  0
LAYER
  5
82
330
2
100
AcDbSymbolTableRecord
100
AcDbLayerTableRecord
  2
\U+0412\U+041E\U+0414\U+042F\U+041D\U+042B\U+0415_\U+0417\U+041D\U+0410\U+041A\U+0418
 70
     0
 62
    11
  6
Continuous
370
    -3
390
F
  0
ENDTAB
  0
TABLE
  2
STYLE
  5
3
330
0
100
AcDbSymbolTable
 70
     1
  0
STYLE
  5
11
330
3
100
AcDbSymbolTableRecord
100
AcDbTextStyleTableRecord
  2
Standard
 70
     0
 40
0.0
 41
1.0
 50
0.0
 71
     0
 42
3.5
  3
txt
  4

  0
ENDTAB
  0
TABLE
  2
VIEW
  5
6
330
0
100
AcDbSymbolTable
 70
     0
  0
ENDTAB
  0
TABLE
  2
UCS
  5
7
330
0
100
AcDbSymbolTable
 70
     0
  0
ENDTAB
  0
TABLE
  2
APPID
  5
9
330
0
100
AcDbSymbolTable
 70
     1
  0
APPID
  5
12
330
9
100
AcDbSymbolTableRecord
100
AcDbRegAppTableRecord
  2
ACAD
 70
     0
  0
ENDTAB
  0
TABLE
  2
DIMSTYLE
  5
A
330
0
100
AcDbSymbolTable
 70
     1
100
AcDbDimStyleTable
  0
DIMSTYLE
105
27
330
A
100
AcDbSymbolTableRecord
100
AcDbDimStyleTableRecord
  2
ISO-25
 70
     0
 41
2.5
 42
0.625
 43
3.75
 44
1.25
 73
     0
 74
     0
 77
     1
 78
     8
140
2.5
141
2.5
143
0.0393700787
147
0.625
171
     3
172
     1
178
     0
271
     2
272
     2
274
     3
278
    44
283
     0
284
     8
340
11
  0
ENDTAB
  0
TABLE
  2
BLOCK_RECORD
  5
1
330
0
100
AcDbSymbolTable
 70
     1
  0
BLOCK_RECORD
  5
1F
330
1
100
AcDbSymbolTableRecord
100
AcDbBlockTableRecord
  2
*Model_Space
340
22
  0
BLOCK_RECORD
  5
1B
330
1
100
AcDbSymbolTableRecord
100
AcDbBlockTableRecord
  2
*Paper_Space
340
1E
  0
BLOCK_RECORD
  5
23
330
1
100
AcDbSymbolTableRecord
100
AcDbBlockTableRecord
  2
*Paper_Space0
340
26
  0
ENDTAB
  0
ENDSEC
  0
SECTION
  2
BLOCKS
  0
BLOCK
  5
20
330
1F
100
AcDbEntity
  8
0
100
AcDbBlockBegin
  2
*Model_Space
 70
     0
 10
0.0
 20
0.0
 30
0.0
  3
*Model_Space
  1

  0
ENDBLK
  5
21
330
1F
100
AcDbEntity
  8
0
100
AcDbBlockEnd
  0
BLOCK
  5
1C
330
1B
100
AcDbEntity
 67
     1
  8
0
100
AcDbBlockBegin
  2
*Paper_Space
 70
     0
 10
0.0
 20
0.0
 30
0.0
  3
*Paper_Space
  1

  0
ENDBLK
  5
1D
330
1B
100
AcDbEntity
 67
     1
  8
0
100
AcDbBlockEnd
  0
BLOCK
  5
24
330
23
100
AcDbEntity
  8
0
100
AcDbBlockBegin
  2
*Paper_Space0
 70
     0
 10
0.0
 20
0.0
 30
0.0
  3
*Paper_Space0
  1

  0
ENDBLK
  5
25
330
23
100
AcDbEntity
  8
0
100
AcDbBlockEnd
  0
ENDSEC
  0
SECTION
  2
ENTITIES
  0
CIRCLE
  5
83
330
1F
100
AcDbEntity
  8
0
  6
Continuous
 62
     7
370
    25
100
AcDbCircle
 10
134.2370630813
 20
107.7286453149
 30
0.0
 40
70.0
  0
CIRCLE
  5
84
330
1F
100
AcDbEntity
  8
0
  6
Continuous
 62
     7
370
    25
100
AcDbCircle
 10
134.2370630813
 20
107.7286453149
 30
0.0
 40
61.7
  0
CIRCLE
  5
85
330
1F
100
AcDbEntity
  8
0
  6
Continuous
 62
     7
370
    25
100
AcDbCircle
 10
134.2370630813
 20
107.7286453149
 30
0.0
 40
77.5
  0
CIRCLE
  5
86
330
1F
100
AcDbEntity
  8
0
  6
Continuous
 62
     7
370
    25
100
AcDbCircle
 10
134.2370630813
 20
107.7286453149
 30
0.0
 40
94.0
  0
LINE
  5
87
330
1F
100
AcDbEntity
  8
0
  6
Continuous
 62
     7
370
    25
100
AcDbLine
 10
228.2370630813
 20
281.6305019862
 30
0.0
 11
228.2370630813
 21
299.6305019862
 31
0.0
  0
LINE
  5
88
330
1F
100
AcDbEntity
  8
0
  6
Continuous
 62
     7
370
    25
100
AcDbLine
 10
40.2370630813
 20
299.6305019862
 30
0.0
 11
40.2370630813
 21
281.6305019862
 31
0.0
  0
LINE
  5
89
330
1F
100
AcDbEntity
  8
0
  6
Continuous
 62
     7
370
    25
100
AcDbLine
 10
211.7370630813
 20
299.6305019862
 30
0.0
 11
204.2370630813
 21
341.6305019862
 31
0.0
  0
LINE
  5
8A
330
1F
100
AcDbEntity
  8
0
  6
Continuous
 62
     7
370
    25
100
AcDbLine
 10
64.2370630813
 20
341.6305019862
 30
0.0
 11
56.7370630813
 21
299.6305019862
 31
0.0
  0
LINE
  5
8B
330
1F
100
AcDbEntity
  8
0
  6
Continuous
 62
     7
370
    25
100
AcDbLine
 10
204.2370630813
 20
341.6305019862
 30
0.0
 11
204.2370630813
 21
469.6305019862
 31
0.0
  0
LINE
  5
8C
330
1F
100
AcDbEntity
  8
0
  6
Continuous
 62
     7
370
    25
100
AcDbLine
 10
64.2370630813
 20
469.6305019862
 30
0.0
 11
64.2370630813
 21
341.6305019862
 31
0.0
  0
LINE
  5
8D
330
1F
100
AcDbEntity
  8
0
  6
Continuous
 62
     7
370
    25
100
AcDbLine
 10
228.2370630813
 20
281.6305019862
 30
0.0
 11
40.2370630813
 21
281.6305019862
 31
0.0
  0
LINE
  5
8E
330
1F
100
AcDbEntity
  8
0
  6
Continuous
 62
     7
370
    25
100
AcDbLine
 10
228.2370630813
 20
299.6305019862
 30
0.0
 11
40.2370630813
 21
299.6305019862
 31
0.0
  0
LINE
  5
8F
330
1F
100
AcDbEntity
  8
0
  6
Continuous
 62
     7
370
    25
100
AcDbLine
 10
204.2370630813
 20
341.6305019862
 30
0.0
 11
64.2370630813
 21
341.6305019862
 31
0.0
  0
LINE
  5
90
330
1F
100
AcDbEntity
  8
0
  6
Continuous
 62
     7
370
    25
100
AcDbLine
 10
204.2370630813
 20
469.6305019862
 30
0.0
 11
64.2370630813
 21
469.6305019862
 31
0.0
  0
LINE
  5
91
330
1F
100
AcDbEntity
  8
0
  6
Continuous
 62
     7
370
    25
100
AcDbLine
 10
-74.1210262328
 20
201.7286453149
 30
0.0
 11
-92.1210262328
 21
201.7286453149
 31
0.0
  0
LINE
  5
92
330
1F
100
AcDbEntity
  8
0
  6
Continuous
 62
     7
370
    25
100
AcDbLine
 10
-92.1210262328
 20
13.7286453149
 30
0.0
 11
-74.1210262328
 21
13.7286453149
 31
0.0
  0
LINE
  5
93
330
1F
100
AcDbEntity
  8
0
  6
Continuous
 62
     7
370
    25
100
AcDbLine
 10
-92.1210262328
 20
185.2286453149
 30
0.0
 11
-134.1210262328
 21
177.7286453149
 31
0.0
  0
LINE
  5
94
330
1F
100
AcDbEntity
  8
0
  6
Continuous
 62
     7
370
    25
100
AcDbLine
 10
-134.1210262328
 20
37.7286453149
 30
0.0
 11
-92.1210262328
 21
30.2286453149
 31
0.0
  0
LINE
  5
95
330
1F
100
AcDbEntity
  8
0
  6
Continuous
 62
     7
370
    25
100
AcDbLine
 10
-134.1210262328
 20
177.7286453149
 30
0.0
 11
-262.1210262328
 21
177.7286453149
 31
0.0
  0
LINE
  5
96
330
1F
100
AcDbEntity
  8
0
  6
Continuous
 62
     7
370
    25
100
AcDbLine
 10
-262.1210262328
 20
37.7286453149
 30
0.0
 11
-134.1210262328
 21
37.7286453149
 31
0.0
  0
LINE
  5
97
330
1F
100
AcDbEntity
  8
0
  6
Continuous
 62
     7
370
    25
100
AcDbLine
 10
-74.1210262328
 20
201.7286453149
 30
0.0
 11
-74.1210262328
 21
13.7286453149
 31
0.0
  0
LINE
  5
98
330
1F
100
AcDbEntity
  8
0
  6
Continuous
 62
     7
370
    25
100
AcDbLine
 10
-92.1210262328
 20
201.7286453149
 30
0.0
 11
-92.1210262328
 21
13.7286453149
 31
0.0
  0
LINE
  5
99
330
1F
100
AcDbEntity
  8
0
  6
Continuous
 62
     7
370
    25
100
AcDbLine
 10
-134.1210262328
 20
177.7286453149
 30
0.0
 11
-134.1210262328
 21
37.7286453149
 31
0.0
  0
LINE
  5
9A
330
1F
100
AcDbEntity
  8
0
  6
Continuous
 62
     7
370
    25
100
AcDbLine
 10
-262.1210262328
 20
177.7286453149
 30
0.0
 11
-262.1210262328
 21
37.7286453149
 31
0.0
  0
LINE
  5
9B
330
1F
100
AcDbEntity
  8
0
  6
Continuous
 62
     7
370
    25
100
AcDbLine
 10
40.2370630813
 20
-40.4169890156
 30
0.0
 11
40.2370630813
 21
-58.4169890156
 31
0.0
  0
LINE
  5
9C
330
1F
100
AcDbEntity
  8
0
  6
Continuous
 62
     7
370
    25
100
AcDbLine
 10
228.2370630813
 20
-58.4169890156
 30
0.0
 11
228.2370630813
 21
-40.4169890156
 31
0.0
  0
LINE
  5
9D
330
1F
100
AcDbEntity
  8
0
  6
Continuous
 62
     7
370
    25
100
AcDbLine
 10
56.7370630813
 20
-58.4169890156
 30
0.0
 11
64.2370630813
 21
-100.4169890156
 31
0.0
  0
LINE
  5
9E
330
1F
100
AcDbEntity
  8
0
  6
Continuous
 62
     7
370
    25
100
AcDbLine
 10
204.2370630813
 20
-100.4169890156
 30
0.0
 11
211.7370630813
 21
-58.4169890156
 31
0.0
  0
LINE
  5
9F
330
1F
100
AcDbEntity
  8
0
  6
Continuous
 62
     7
370
    25
100
AcDbLine
 10
64.2370630813
 20
-100.4169890156
 30
0.0
 11
64.2370630813
 21
-228.4169890156
 31
0.0
  0
LINE
  5
A0
330
1F
100
AcDbEntity
  8
0
  6
Continuous
 62
     7
370
    25
100
AcDbLine
 10
204.2370630813
 20
-228.4169890156
 30
0.0
 11
204.2370630813
 21
-100.4169890156
 31
0.0
  0
LINE
  5
A1
330
1F
100
AcDbEntity
  8
0
  6
Continuous
 62
     7
370
    25
100
AcDbLine
 10
40.2370630813
 20
-40.4169890156
 30
0.0
 11
228.2370630813
 21
-40.4169890156
 31
0.0
  0
LINE
  5
A2
330
1F
100
AcDbEntity
  8
0
  6
Continuous
 62
     7
370
    25
100
AcDbLine
 10
40.2370630813
 20
-58.4169890156
 30
0.0
 11
228.2370630813
 21
-58.4169890156
 31
0.0
  0
LINE
  5
A3
330
1F
100
AcDbEntity
  8
0
  6
Continuous
 62
     7
370
    25
100
AcDbLine
 10
64.2370630813
 20
-100.4169890156
 30
0.0
 11
204.2370630813
 21
-100.4169890156
 31
0.0
  0
LINE
  5
A4
330
1F
100
AcDbEntity
  8
0
  6
Continuous
 62
     7
370
    25
100
AcDbLine
 10
64.2370630813
 20
-228.4169890156
 30
0.0
 11
204.2370630813
 21
-228.4169890156
 31
0.0
  0
LINE
  5
A5
330
1F
100
AcDbEntity
  8
0
  6
Continuous
 62
     7
370
    25
100
AcDbLine
 10
332.1312939037
 20
13.7286453149
 30
0.0
 11
350.1312939037
 21
13.7286453149
 31
0.0
  0
LINE
  5
A6
330
1F
100
AcDbEntity
  8
0
  6
Continuous
 62
     7
370
    25
100
AcDbLine
 10
350.1312939037
 20
201.7286453149
 30
0.0
 11
332.1312939037
 21
201.7286453149
 31
0.0
  0
LINE
  5
A7
330
1F
100
AcDbEntity
  8
0
  6
Continuous
 62
     7
370
    25
100
AcDbLine
 10
350.1312939037
 20
30.2286453149
 30
0.0
 11
392.1312939037
 21
37.7286453149
 31
0.0
  0
LINE
  5
A8
330
1F
100
AcDbEntity
  8
0
  6
Continuous
 62
     7
370
    25
100
AcDbLine
 10
392.1312939037
 20
177.7286453149
 30
0.0
 11
350.1312939037
 21
185.2286453149
 31
0.0
  0
LINE
  5
A9
330
1F
100
AcDbEntity
  8
0
  6
Continuous
 62
     7
370
    25
100
AcDbLine
 10
392.1312939037
 20
37.7286453149
 30
0.0
 11
520.1312939037
 21
37.7286453149
 31
0.0
  0
LINE
  5
AA
330
1F
100
AcDbEntity
  8
0
  6
Continuous
 62
     7
370
    25
100
AcDbLine
 10
520.1312939037
 20
177.7286453149
 30
0.0
 11
392.1312939037
 21
177.7286453149
 31
0.0
  0
LINE
  5
AB
330
1F
100
AcDbEntity
  8
0
  6
Continuous
 62
     7
370
    25
100
AcDbLine
 10
332.1312939037
 20
107.7286453149
 30
0.0
 11
332.1312939037
 21
201.7286453149
 31
0.0
  0
LINE
  5
AC
330
1F
100
AcDbEntity
  8
0
  6
Continuous
 62
     7
370
    25
100
AcDbLine
 10
332.1312939037
 20
13.7286453149
 30
0.0
 11
332.1312939037
 21
107.7286453149
 31
0.0
  0
LINE
  5
AD
330
1F
100
AcDbEntity
  8
0
  6
Continuous
 62
     7
370
    25
100
AcDbLine
 10
350.1312939037
 20
107.7286453149
 30
0.0
 11
350.1312939037
 21
201.7286453149
 31
0.0
  0
LINE
  5
AE
330
1F
100
AcDbEntity
  8
0
  6
Continuous
 62
     7
370
    25
100
AcDbLine
 10
350.1312939037
 20
13.7286453149
 30
0.0
 11
350.1312939037
 21
107.7286453149
 31
0.0
  0
LINE
  5
AF
330
1F
100
AcDbEntity
  8
0
  6
Continuous
 62
     7
370
    25
100
AcDbLine
 10
392.1312939037
 20
107.7286453149
 30
0.0
 11
392.1312939037
 21
177.7286453149
 31
0.0
  0
LINE
  5
B0
330
1F
100
AcDbEntity
  8
0
  6
Continuous
 62
     7
370
    25
100
AcDbLine
 10
392.1312939037
 20
37.7286453149
 30
0.0
 11
392.1312939037
 21
107.7286453149
 31
0.0
  0
LINE
  5
B1
330
1F
100
AcDbEntity
  8
0
  6
Continuous
 62
     7
370
    25
100
AcDbLine
 10
520.1312939037
 20
107.7286453149
 30
0.0
 11
520.1312939037
 21
177.7286453149
 31
0.0
  0
LINE
  5
B2
330
1F
100
AcDbEntity
  8
0
  6
Continuous
 62
     7
370
    25
100
AcDbLine
 10
520.1312939037
 20
37.7286453149
 30
0.0
 11
520.1312939037
 21
107.7286453149
 31
0.0
  0
LINE
  5
B3
330
1F
100
AcDbEntity
  8
0
  6
Continuous
 62
     7
370
    25
100
AcDbLine
 10
453.1194581394
 20
-73.3981190192
 30
0.0
 11
362.6097901476
 21
-21.1479998625
 31
0.0
  0
LINE
  5
B4
330
1F
100
AcDbEntity
  8
0
  6
Continuous
 62
     7
370
    25
100
AcDbLine
 10
292.615478863
 20
-142.3948405958
 30
0.0
 11
383.1251468549
 21
-194.6449597525
 31
0.0
  0
LINE
  5
B5
330
1F
100
AcDbEntity
  8
0
  6
Continuous
 62
     7
370
    25
100
AcDbLine
 10
481.3637373095
 20
-81.7595419968
 30
0.0
 11
450.9005086562
 21
-72.1171467488
 31
0.0
  0
LINE
  5
B6
330
1F
100
AcDbEntity
  8
0
  6
Continuous
 62
     7
370
    25
100
AcDbLine
 10
380.9061973716
 20
-193.3639874821
 30
0.0
 11
404.4903940529
 21
-214.9225067495
 31
0.0
  0
LINE
  5
B7
330
1F
100
AcDbEntity
  8
0
  6
Continuous
 62
     7
370
    25
100
AcDbLine
 10
507.5448898023
 20
-77.1051896767
 30
0.0
 11
494.8169677409
 21
-69.7575166703
 31
0.0
  0
LINE
  5
B8
330
1F
100
AcDbEntity
  8
0
  6
Continuous
 62
     7
370
    25
100
AcDbLine
 10
400.8246068731
 20
-232.5747027979
 30
0.0
 11
413.5525289345
 21
-239.9223758043
 31
0.0
  0
LWPOLYLINE
  5
B9
330
1F
100
AcDbEntity
  8
0
  6
Continuous
 62
     7
370
    25
100
AcDbPolyline
 90
      112
 70
   128
 43
0.0
 10
278.1151598222
 20
-110.345704143
 10
278.1944374891
 20
-107.0662295586
 10
278.4320165393
 20
-103.7057280741
 10
278.8271359356
 20
-100.274964389
 10
279.3785299915
 20
-96.7849282735
 10
280.0844324255
 20
-93.2467993656
 10
280.9425820194
 20
-89.6719113588
 10
281.9502298612
 20
-86.0717156971
 10
283.1041481512
 20
-82.4577448926
 10
284.4006405411
 20
-78.8415755832
 10
285.8355539751
 20
-75.2347914496
 10
287.4042919928
 20
-71.6489461085
 10
289.1018294534
 20
-68.0955261037
 10
290.9227286326
 20
-64.5859141108
 10
292.8611566414
 20
-61.131352475
 10
294.9109041106
 20
-57.7429071986
 10
297.0654050809
 20
-54.4314324935
 10
299.3177580363
 20
-51.2075360114
 10
301.6607480113
 20
-48.0815448648
 10
304.0868697025
 20
-45.0634725456
 10
306.5883515109
 20
-42.1629868493
 10
309.1571804359
 20
-39.3893789062
 10
311.7851277443
 20
-36.7515334185
 10
314.4637753284
 20
-34.2579002007
 10
317.1845426724
 20
-31.9164671116
 10
319.9387143385
 20
-29.7347344675
 10
322.7174678843
 20
-27.7196910156
 10
325.5119021246
 20
-25.8777915476
 10
328.313065644
 20
-24.2149362229
 10
331.1119854713
 20
-22.7364516682
 10
333.8996958225
 20
-21.4470739155
 10
336.6672668209
 20
-20.3509332303
 10
339.4058331023
 20
-19.4515408817
 10
342.1066222132
 20
-18.7517778946
 10
344.7609827119
 20
-18.2538858207
 10
347.3604118814
 20
-17.9594595585
 10
349.8965829666
 20
-17.869442244
 10
352.3613718468
 20
-17.9841222299
 10
354.7468830602
 20
-18.3031321616
 10
357.0454750951
 20
-18.8254501541
 10
359.2497848684
 20
-19.5494030653
 10
361.3527513112
 20
-20.472671856
 10
363.3476379881
 20
-21.5922990177
 10
365.2280546756
 20
-22.9046980472
 10
366.9879778322
 20
-24.4056649347
 10
368.6217698934
 20
-26.0903916308
 10
370.1241973307
 20
-27.9534814479
 10
371.4904474162
 20
-29.9889663477
 10
372.7161436388
 20
-32.1903260584
 10
373.797359724
 20
-34.5505089613
 10
374.7306322108
 20
-37.0619546788
 10
375.5129715461
 20
-39.7166182933
 10
376.141871661
 20
-42.5059961169
 10
376.615317999
 20
-45.4211529315
 10
376.9317939687
 20
-48.4527506109
 10
377.0902858021
 20
-51.5910780339
 10
377.0902858021
 20
-54.8260821915
 10
376.9317939687
 20
-58.1474003903
 10
376.615317999
 20
-61.5443934466
 10
376.141871661
 20
-65.0061797677
 10
375.5129715461
 20
-68.5216702082
 10
374.7306322108
 20
-72.0796035926
 10
373.797359724
 20
-75.6685827875
 10
372.7161436388
 20
-79.2771112106
 10
371.4904474162
 20
-82.8936296574
 10
370.1241973307
 20
-86.5065533291
 10
368.6217698934
 20
-90.104308942
 10
366.9879778322
 20
-93.6753718001
 10
365.2280546756
 20
-97.2083027127
 10
363.3476379881
 20
-100.6917846368
 10
361.3527513112
 20
-104.1146589296
 10
359.2497848684
 20
-107.465961093
 10
357.0454750951
 20
-110.7349558958
 10
354.7468830602
 20
-113.911171762
 10
352.3613718468
 20
-116.9844343147
 10
349.8965829666
 20
-119.9448989674
 10
347.3604118814
 20
-122.7830824594
 10
344.7609827119
 20
-125.4898932333
 10
342.1066222132
 20
-128.0566605581
 10
339.4058331023
 20
-130.4751623042
 10
336.6672668209
 20
-132.7376512815
 10
333.8996958225
 20
-134.8368800558
 10
331.1119854713
 20
-136.7661241642
 10
328.313065644
 20
-138.5192036564
 10
325.5119021246
 20
-140.0905028903
 10
322.7174678843
 20
-141.4749885206
 10
319.9387143385
 20
-142.6682256226
 10
317.1845426724
 20
-143.6663918979
 10
314.4637753284
 20
-144.4662899193
 10
311.7851277443
 20
-145.065357372
 10
309.1571804359
 20
-145.4616752626
 10
306.5883515109
 20
-145.6539740652
 10
304.0868697025
 20
-145.6416377889
 10
301.6607480113
 20
-145.4247059505
 10
299.3177580363
 20
-145.003873448
 10
297.0654050809
 20
-144.3804883348
 10
294.9109041106
 20
-143.5565475014
 10
292.8611566414
 20
-142.5346902786
 10
290.9227286326
 20
-141.3181899833
 10
289.1018294534
 20
-139.9109434326
 10
287.4042919928
 20
-138.3174584614
 10
285.8355539751
 20
-136.5428394826
 10
284.4006405411
 20
-134.5927711356
 10
283.1041481512
 20
-132.4735000774
 10
281.9502298612
 20
-130.1918149719
 10
280.9425820194
 20
-127.7550247446
 10
280.0844324255
 20
-125.1709351691
 10
279.3785299915
 20
-122.4478238634
 10
278.8271359356
 20
-119.5944137739
 10
278.4320165393
 20
-116.6198452333
 10
278.1944374891
 20
-113.5336466816
 10
278.1151598222
 20
-110.345704143
  0
LWPOLYLINE
  5
BA
330
1F
100
AcDbEntity
  8
0
  6
Continuous
 62
     7
370
    25
100
AcDbPolyline
 90
      105
 70
   128
 43
0.0
 10
283.9841461061
 20
-106.9576104789
 10
284.0637439175
 20
-103.8697566397
 10
284.3022469079
 20
-100.7012683675
 10
284.6987848058
 20
-97.4637071322
 10
285.2519106874
 20
-94.1688864439
 10
285.9596062563
 20
-90.8288287457
 10
286.8192892082
 20
-87.4557215462
 10
287.8278226532
 20
-84.0618729475
 10
288.9815265621
 20
-80.6596667353
 10
290.2761911944
 20
-77.2615171911
 10
291.7070924594
 20
-73.8798237939
 10
293.2690091535
 20
-70.5269259763
 10
294.956242012
 20
-67.2150580988
 10
296.7626345053
 20
-63.9563048082
 10
298.681595303
 20
-60.7625569417
 10
300.7061223252
 20
-57.645468139
 10
302.8288282925
 20
-54.6164123191
 10
305.041967681
 20
-51.6864421782
 10
307.3374649849
 20
-48.8662488597
 10
309.7069441837
 20
-46.1661229429
 10
312.1417593047
 20
-43.5959168947
 10
314.6330259714
 20
-41.1650091182
 10
317.1716538222
 20
-38.8822697322
 10
319.7483796791
 20
-36.7560282051
 10
322.3538013491
 20
-34.7940429618
 10
324.9784119309
 20
-33.0034730736
 10
327.6126345053
 20
-31.3908521358
 10
330.2468570796
 20
-29.9620644275
 10
332.8714676615
 20
-28.7223234398
 10
335.4768893315
 20
-27.6761528534
 10
338.0536151884
 20
-26.8273700312
 10
340.5922430391
 20
-26.1790720896
 10
343.0835097059
 20
-25.7336245976
 10
345.5183248269
 20
-25.4926529448
 10
347.8878040256
 20
-25.4570364105
 10
350.1833013296
 20
-25.6269049557
 10
352.3964407181
 20
-26.0016387485
 10
354.5191466853
 20
-26.5798704258
 10
356.5436737076
 20
-27.359490083
 10
358.4626345053
 20
-28.3376529725
 10
360.2690269986
 20
-29.510789884
 10
361.9562598571
 20
-30.8746201682
 10
363.5181765512
 20
-32.4241673562
 10
364.9490778162
 20
-34.1537773184
 10
366.2437424485
 20
-36.0571388956
 10
367.3974463574
 20
-38.1273069278
 10
368.4059798024
 20
-40.3567275964
 10
369.2656627542
 20
-42.7372659872
 10
369.9733583232
 20
-45.2602357736
 10
370.5264842048
 20
-47.9164309126
 10
370.9230221027
 20
-50.6961592362
 10
371.1615250931
 20
-53.5892778171
 10
371.2411229045
 20
-56.5852299795
 10
371.1615250931
 20
-59.6730838186
 10
370.9230221027
 20
-62.8415720909
 10
370.5264842048
 20
-66.0791333261
 10
369.9733583232
 20
-69.3739540145
 10
369.2656627542
 20
-72.7140117126
 10
368.4059798024
 20
-76.0871189122
 10
367.3974463574
 20
-79.4809675108
 10
366.2437424485
 20
-82.883173723
 10
364.9490778162
 20
-86.2813232673
 10
363.5181765512
 20
-89.6630166645
 10
361.9562598571
 20
-93.015914482
 10
360.2690269986
 20
-96.3277823595
 10
358.4626345053
 20
-99.5865356502
 10
356.5436737076
 20
-102.7802835167
 10
354.5191466853
 20
-105.8973723194
 10
352.3964407181
 20
-108.9264281392
 10
350.1833013296
 20
-111.8563982801
 10
347.8878040256
 20
-114.6765915987
 10
345.5183248269
 20
-117.3767175154
 10
343.0835097059
 20
-119.9469235637
 10
340.5922430391
 20
-122.3778313402
 10
338.0536151884
 20
-124.6605707262
 10
335.4768893315
 20
-126.7868122533
 10
332.8714676615
 20
-128.7487974966
 10
330.2468570796
 20
-130.5393673848
 10
327.6126345053
 20
-132.1519883225
 10
324.9784119309
 20
-133.5807760309
 10
322.3538013491
 20
-134.8205170185
 10
319.7483796791
 20
-135.866687605
 10
317.1716538222
 20
-136.7154704272
 10
314.6330259714
 20
-137.3637683687
 10
312.1417593047
 20
-137.8092158607
 10
309.7069441837
 20
-138.0501875136
 10
307.3374649849
 20
-138.0858040478
 10
305.041967681
 20
-137.9159355026
 10
302.8288282925
 20
-137.5412017099
 10
300.7061223252
 20
-136.9629700326
 10
298.681595303
 20
-136.1833503754
 10
296.7626345053
 20
-135.2051874859
 10
294.956242012
 20
-134.0320505743
 10
293.2690091535
 20
-132.6682202902
 10
291.7070924594
 20
-131.1186731022
 10
290.2761911944
 20
-129.38906314
 10
288.9815265621
 20
-127.4857015628
 10
287.8278226532
 20
-125.4155335305
 10
286.8192892082
 20
-123.1861128619
 10
285.9596062563
 20
-120.8055744712
 10
285.2519106874
 20
-118.2826046847
 10
284.6987848058
 20
-115.6264095457
 10
284.3022469079
 20
-112.8466812222
 10
284.0637439175
 20
-109.9535626412
 10
283.9841461061
 20
-106.9576104789
  0
LWPOLYLINE
  5
BB
330
1F
100
AcDbEntity
  8
0
  6
Continuous
 62
     7
370
    25
100
AcDbPolyline
 90
       58
 70
   128
 43
0.0
 10
453.1194581394
 20
-73.3981190192
 10
453.85730598
 20
-73.8424181744
 10
455.7377226675
 20
-75.1548172039
 10
457.4976458241
 20
-76.6557840914
 10
459.1314378853
 20
-78.3405107874
 10
460.6338653226
 20
-80.2036006046
 10
462.000115408
 20
-82.2390855044
 10
463.2258116306
 20
-84.4404452151
 10
464.3070277159
 20
-86.8006281179
 10
465.2403002027
 20
-89.3120738355
 10
466.022639538
 20
-91.96673745
 10
466.6515396529
 20
-94.7561152736
 10
467.1249859909
 20
-97.6712720881
 10
467.4414619606
 20
-100.7028697676
 10
467.599953794
 20
-103.8411971905
 10
467.599953794
 20
-107.0762013482
 10
467.4414619606
 20
-110.3975195469
 10
467.1249859909
 20
-113.7945126032
 10
466.6515396529
 20
-117.2562989243
 10
466.022639538
 20
-120.7717893649
 10
465.2403002027
 20
-124.3297227492
 10
464.3070277159
 20
-127.9187019441
 10
463.2258116306
 20
-131.5272303672
 10
462.000115408
 20
-135.143748814
 10
460.6338653226
 20
-138.7566724857
 10
459.1314378853
 20
-142.3544280986
 10
457.4976458241
 20
-145.9254909568
 10
455.7377226675
 20
-149.4584218693
 10
453.85730598
 20
-152.9419037934
 10
451.8624193031
 20
-156.3647780863
 10
449.7594528603
 20
-159.7160802497
 10
447.555143087
 20
-162.9850750524
 10
445.2565510521
 20
-166.1612909186
 10
442.8710398387
 20
-169.2345534713
 10
440.4062509585
 20
-172.1950181241
 10
437.8700798733
 20
-175.0332016161
 10
435.2706507037
 20
-177.7400123899
 10
432.6162902051
 20
-180.3067797147
 10
429.9155010942
 20
-182.7252814609
 10
427.1769348128
 20
-184.9877704382
 10
424.4093638144
 20
-187.0869992124
 10
421.6216534632
 20
-189.0162433209
 10
418.8227336359
 20
-190.7693228131
 10
416.0215701164
 20
-192.3406220469
 10
413.2271358762
 20
-193.7251076773
 10
410.4483823303
 20
-194.9183447792
 10
407.6942106643
 20
-195.9165110546
 10
404.9734433202
 20
-196.7164090759
 10
402.2947957361
 20
-197.3154765287
 10
399.6668484278
 20
-197.7117944192
 10
397.0980195027
 20
-197.9040932219
 10
394.5965376944
 20
-197.8917569456
 10
392.1704160032
 20
-197.6748251071
 10
389.8274260282
 20
-197.2539926046
 10
387.5750730728
 20
-196.6306074914
 10
385.4205721024
 20
-195.806666658
 10
383.3708246333
 20
-194.7848094353
 10
383.1251468549
 20
-194.6449597525
  0
LWPOLYLINE
  5
BC
330
1F
100
AcDbEntity
  8
0
  6
Continuous
 62
     7
370
    25
100
AcDbPolyline
 90
       65
 70
   128
 43
0.0
 10
481.3637373095
 20
-81.7595419968
 10
482.4792843776
 20
-82.1397015133
 10
484.7078363805
 20
-83.0721173471
 10
486.8300334719
 20
-84.2008657886
 10
488.8397568083
 20
-85.5226923638
 10
490.7312118369
 20
-87.0337859045
 10
492.4989450033
 20
-88.7297895368
 10
494.1378594752
 20
-90.6058132433
 10
495.6432298378
 20
-92.6564479619
 10
497.0107157187
 20
-94.8757811819
 10
498.2363743022
 20
-97.2574139911
 10
499.3166716971
 20
-99.7944795255
 10
500.2484931266
 20
-102.4796627685
 10
501.0291519081
 20
-105.3052216416
 10
501.6563972003
 20
-108.2630093272
 10
502.1284204927
 20
-111.3444977577
 10
502.4438608199
 20
-114.5408022042
 10
502.6018086858
 20
-117.8427068935
 10
502.6018086858
 20
-121.2406915798
 10
502.4438608199
 20
-124.7249589934
 10
502.1284204927
 20
-128.2854630895
 10
501.6563972003
 20
-131.9119380129
 10
501.0291519081
 20
-135.5939276979
 10
500.2484931266
 20
-139.3208160148
 10
499.3166716971
 20
-143.0818573799
 10
498.2363743022
 20
-146.8662077374
 10
497.0107157187
 20
-150.6629558254
 10
495.6432298378
 20
-154.4611546364
 10
494.1378594752
 20
-158.24985298
 10
492.4989450033
 20
-162.018127058
 10
490.7312118369
 20
-165.7551119608
 10
488.8397568083
 20
-169.4500329935
 10
486.8300334719
 20
-173.0922367422
 10
484.7078363805
 20
-176.6712217907
 10
482.4792843776
 20
-180.1766689986
 10
480.1508029555
 20
-183.5984712541
 10
477.7291057289
 20
-186.9267626156
 10
475.221175078
 20
-190.1519467573
 10
472.6342420159
 20
-193.2647246386
 10
469.9757653404
 20
-196.256121315
 10
467.2534101279
 20
-199.1175118155
 10
464.4750256333
 20
-201.8406460105
 10
461.6486226582
 20
-204.4176723992
 10
458.7823504542
 20
-206.8411607475
 10
455.8844732261
 20
-209.1041235109
 10
452.9633463039
 20
-211.2000359822
 10
450.0273920529
 20
-213.1228551029
 10
447.0850755892
 20
-214.867036888
 10
444.1448803728
 20
-216.4275524096
 10
441.2152837478
 20
-217.7999022977
 10
438.3047324994
 20
-218.9801297123
 10
435.4216185005
 20
-219.9648317521
 10
432.5742545151
 20
-220.7511692663
 10
429.7708502306
 20
-221.3368750402
 10
427.0194885873
 20
-221.7202603325
 10
424.328102473
 20
-221.9002197442
 10
421.7044518508
 20
-221.8762344057
 10
419.1561013844
 20
-221.6483734729
 10
416.6903986281
 20
-221.2172939279
 10
414.3144528411
 20
-220.5842386846
 10
412.0351144902
 20
-219.7510330051
 10
409.8589554979
 20
-218.7200792371
 10
407.7922502939
 20
-217.4943498873
 10
405.8409577245
 20
-216.0773790505
 10
404.4903940529
 20
-214.9225067495
  0
LWPOLYLINE
  5
BD
330
1F
100
AcDbEntity
  8
0
  6
Continuous
 62
     7
370
    25
100
AcDbPolyline
 90
       66
 70
   128
 43
0.0
 10
507.5448898023
 20
-77.1051896767
 10
508.9574766648
 20
-77.9712152956
 10
511.1176741252
 20
-79.5082059645
 10
513.1579275882
 20
-81.2325891328
 10
515.0733977979
 20
-83.1402747542
 10
516.8595414707
 20
-85.2267380091
 10
518.512122071
 20
-87.4870300373
 10
520.0272198603
 20
-89.9157896757
 10
521.401241194
 20
-92.5072561748
 10
522.6309270453
 20
-95.2552828625
 10
523.7133607351
 20
-98.1533517229
 10
524.6459748505
 20
-101.1945888571
 10
525.4265573338
 20
-104.3717807863
 10
526.0532567294
 20
-107.6773915626
 10
526.5245865758
 20
-111.1035806422
 10
526.8394289306
 20
-114.6422214832
 10
526.9970370225
 20
-118.2849208205
 10
526.9970370225
 20
-122.0230385738
 10
526.8394289306
 20
-125.8477083407
 10
526.5245865758
 20
-129.749858427
 10
526.0532567294
 20
-133.7202333639
 10
525.4265573338
 20
-137.7494158607
 10
524.6459748505
 20
-141.8278491417
 10
523.7133607351
 20
-145.9458596137
 10
522.6309270453
 20
-150.0936798108
 10
521.401241194
 20
-154.2614715618
 10
520.0272198603
 20
-158.4393493251
 10
518.512122071
 20
-162.6174036362
 10
516.8595414707
 20
-166.785724612
 10
515.0733977979
 20
-170.9344254555
 10
513.1579275882
 20
-175.0536659068
 10
511.1176741252
 20
-179.1336755825
 10
508.9574766648
 20
-183.1647771506
 10
506.6824589565
 20
-187.1374092834
 10
504.2980170913
 20
-191.0421493364
 10
501.8098067015
 20
-194.8697356976
 10
499.2237295475
 20
-198.6110897551
 10
496.5459195186
 20
-202.2573374304
 10
493.7827280841
 20
-205.7998302268
 10
490.9407092291
 20
-209.2301657428
 10
488.0266039081
 20
-212.5402076015
 10
485.047324057
 20
-215.7221047494
 10
482.0099361986
 20
-218.768310078
 10
478.9216446812
 20
-221.6715983247
 10
475.7897745911
 20
-224.4250832107
 10
472.6217543782
 20
-227.0222337739
 10
469.4250982364
 20
-229.4568898603
 10
466.2073882808
 20
-231.7232767344
 10
462.976256564
 20
-233.8160187771
 10
459.7393669735
 20
-235.7301522354
 10
456.5043970538
 20
-237.4611369963
 10
453.279019796
 20
-239.0048673551
 10
450.0708854387
 20
-240.357681754
 10
446.8876033222
 20
-241.5163714667
 10
443.7367238399
 20
-242.4781882091
 10
440.6257205298
 20
-243.2408506584
 10
437.5619723482
 20
-243.8025498633
 10
434.5527461672
 20
-244.1619535355
 10
431.6051795388
 20
-244.318209209
 10
428.7262637654
 20
-244.2709462629
 10
425.9228273172
 20
-244.0202767994
 10
423.2015196357
 20
-243.5667953789
 10
420.5687953621
 20
-242.9115776092
 10
418.0308990274
 20
-242.0561775945
 10
415.5938502415
 20
-241.0026242492
 10
413.5525289345
 20
-239.9223758043
  0
LWPOLYLINE
  5
BE
330
1F
100
AcDbEntity
  8
0
  6
Continuous
 62
     7
370
    25
100
AcDbPolyline
 90
       96
 70
   128
 43
0.0
 10
451.6183515166
 20
-72.3443624738
 10
453.4794662194
 20
-71.4232441347
 10
456.697176175
 20
-69.974542172
 10
459.8938323169
 20
-68.7184176374
 10
463.0618525298
 20
-67.6578499195
 10
466.1937226199
 20
-66.7953545678
 10
469.2820141373
 20
-66.1329773259
 10
472.3194019957
 20
-65.6722892794
 10
475.2986818467
 20
-65.4143831296
 10
478.2127871677
 20
-65.3598706013
 10
481.0548060228
 20
-65.5088809922
 10
483.8179974572
 20
-65.8610608661
 10
486.4958074862
 20
-66.4155748914
 10
489.0818846402
 20
-67.1711078218
 10
491.5700950299
 20
-68.1258676169
 10
493.9545368952
 20
-69.2775896919
 10
496.2295546034
 20
-70.6235422892
 10
498.3897520639
 20
-72.1605329581
 10
500.4300055268
 20
-73.8849161264
 10
502.3454757366
 20
-75.7926017478
 10
504.1316194093
 20
-77.8790650027
 10
505.7842000097
 20
-80.1393570308
 10
507.2992977989
 20
-82.5681166693
 10
508.6733191326
 20
-85.1595831684
 10
509.9030049839
 20
-87.9076098561
 10
510.9854386738
 20
-90.8056787165
 10
511.9180527892
 20
-93.8469158507
 10
512.6986352724
 20
-97.0241077799
 10
513.3253346681
 20
-100.3297185562
 10
513.7966645145
 20
-103.7559076358
 10
514.1115068692
 20
-107.2945484768
 10
514.2691149611
 20
-110.9372478141
 10
514.2691149611
 20
-114.6753655674
 10
514.1115068692
 20
-118.5000353343
 10
513.7966645145
 20
-122.4021854206
 10
513.3253346681
 20
-126.3725603575
 10
512.6986352724
 20
-130.4017428543
 10
511.9180527892
 20
-134.4801761353
 10
510.9854386738
 20
-138.5981866073
 10
509.9030049839
 20
-142.7460068044
 10
508.6733191326
 20
-146.9137985554
 10
507.2992977989
 20
-151.0916763187
 10
505.7842000097
 20
-155.2697306298
 10
504.1316194093
 20
-159.4380516056
 10
502.3454757366
 20
-163.5867524491
 10
500.4300055268
 20
-167.7059929004
 10
498.3897520639
 20
-171.7860025761
 10
496.2295546034
 20
-175.8171041442
 10
493.9545368952
 20
-179.7897362769
 10
491.5700950299
 20
-183.69447633
 10
489.0818846402
 20
-187.5220626912
 10
486.4958074862
 20
-191.2634167487
 10
483.8179974572
 20
-194.9096644239
 10
481.0548060228
 20
-198.4521572203
 10
478.2127871677
 20
-201.8824927364
 10
475.2986818467
 20
-205.1925345951
 10
472.3194019957
 20
-208.374431743
 10
469.2820141373
 20
-211.4206370716
 10
466.1937226199
 20
-214.3239253183
 10
463.0618525298
 20
-217.0774102043
 10
459.8938323169
 20
-219.6745607675
 10
456.697176175
 20
-222.1092168538
 10
453.4794662194
 20
-224.375603728
 10
450.2483345027
 20
-226.4683457707
 10
447.0114449122
 20
-228.382479229
 10
443.7764749924
 20
-230.1134639899
 10
440.5510977346
 20
-231.6571943487
 10
437.3429633773
 20
-233.0100087476
 10
434.1596812608
 20
-234.1686984603
 10
431.0088017785
 20
-235.1305152027
 10
427.8977984685
 20
-235.893177652
 10
424.8340502868
 20
-236.4548768569
 10
421.8248241058
 20
-236.8142805291
 10
418.8772574774
 20
-236.9705362026
 10
415.9983417041
 20
-236.9232732564
 10
413.1949052559
 20
-236.672603793
 10
410.4735975744
 20
-236.2191223725
 10
407.8408733007
 20
-235.5639046028
 10
405.3029769661
 20
-234.7085045881
 10
402.8659281801
 20
-233.6549512428
 10
400.5355073533
 20
-232.4057434788
 10
398.3172419864
 20
-230.9638442791
 10
396.2163935598
 20
-229.3326736693
 10
394.2379450538
 20
-227.5161006058
 10
392.3865891297
 20
-225.5184337992
 10
390.6667169992
 20
-223.3444114945
 10
389.082408009
 20
-220.9991902324
 10
387.637419965
 20
-218.4883326186
 10
386.3351802192
 20
-215.81779413
 10
385.1787775403
 20
-212.9939089888
 10
384.1709547878
 20
-210.0233751387
 10
383.314102406
 20
-206.9132383576
 10
382.6102527539
 20
-203.6708755465
 10
382.0610752851
 20
-200.3039772317
 10
381.6678725881
 20
-196.8205293241
 10
381.4619410651
 20
-193.8719976249
  0
ENDSEC
  0
SECTION
  2
OBJECTS
  0
DICTIONARY
  5
C
330
0
100
AcDbDictionary
281
     1
  3
ACAD_GROUP
350
D
  3
ACAD_LAYOUT
350
1A
  3
ACAD_MLINESTYLE
350
17
  3
ACAD_PLOTSETTINGS
350
19
  3
ACAD_PLOTSTYLENAME
350
E
  3
ACAD_SCALELIST
350
47
  0
DICTIONARY
  5
D
102
{ACAD_REACTORS
330
C
102
}
330
C
100
AcDbDictionary
281
     1
  0
DICTIONARY
  5
1A
102
{ACAD_REACTORS
330
C
102
}
330
C
100
AcDbDictionary
281
     1
  3
Layout1
350
1E
  3
Layout2
350
26
  3
Model
350
22
  0
DICTIONARY
  5
17
102
{ACAD_REACTORS
330
C
102
}
330
C
100
AcDbDictionary
281
     1
  3
Standard
350
18
  0
DICTIONARY
  5
19
102
{ACAD_REACTORS
330
C
102
}
330
C
100
AcDbDictionary
281
     1
  0
ACDBDICTIONARYWDFLT
  5
E
102
{ACAD_REACTORS
330
C
102
}
330
C
100
AcDbDictionary
281
     1
  3
Normal
350
F
100
AcDbDictionaryWithDefault
340
F
  0
DICTIONARY
  5
47
102
{ACAD_REACTORS
330
C
102
}
330
C
100
AcDbDictionary
281
     1
  3
A0
350
48
  3
A1
350
49
  3
A2
350
4A
  3
A3
350
4B
  3
A4
350
4C
  3
A5
350
4D
  3
A6
350
4E
  3
A7
350
4F
  3
A8
350
50
  3
A9
350
51
  3
B0
350
52
  3
B1
350
53
  3
B2
350
54
  3
B3
350
55
  3
B4
350
56
  3
B5
350
57
  3
B6
350
58
  3
B7
350
59
  3
B8
350
5A
  3
B9
350
5B
  3
C0
350
5C
  3
C1
350
5D
  3
C2
350
5E
  3
C3
350
5F
  3
C4
350
60
  3
C5
350
61
  3
C6
350
62
  3
C7
350
63
  3
C8
350
64
  3
C9
350
65
  3
D0
350
66
  3
D1
350
67
  3
D2
350
68
  0
LAYOUT
  5
1E
102
{ACAD_REACTORS
330
1A
102
}
330
1A
100
AcDbPlotSettings
  1

  2
none_device
  4

  6

 40
0.0
 41
0.0
 42
0.0
 43
0.0
 44
0.0
 45
0.0
 46
0.0
 47
0.0
 48
0.0
 49
0.0
140
0.0
141
0.0
142
1.0
143
1.0
 70
   688
 72
     1
 73
     0
 74
     5
  7

 75
    16
147
1.0
148
0.0
149
0.0
100
AcDbLayout
  1
Layout1
 70
     1
 71
     1
 10
0.0
 20
0.0
 11
420.0
 21
297.0
 12
0.0
 22
0.0
 32
0.0
 14
1.0000000000E+20
 24
1.0000000000E+20
 34
1.0000000000E+20
 15
-1.0000000000E+20
 25
-1.0000000000E+20
 35
-1.0000000000E+20
146
0.0
 13
0.0
 23
0.0
 33
0.0
 16
1.0
 26
0.0
 36
0.0
 17
0.0
 27
1.0
 37
0.0
 76
     0
330
1B
  0
LAYOUT
  5
26
102
{ACAD_REACTORS
330
1A
102
}
330
1A
100
AcDbPlotSettings
  1

  2
none_device
  4

  6

 40
0.0
 41
0.0
 42
0.0
 43
0.0
 44
0.0
 45
0.0
 46
0.0
 47
0.0
 48
0.0
 49
0.0
140
0.0
141
0.0
142
1.0
143
1.0
 70
   688
 72
     1
 73
     0
 74
     5
  7

 75
    16
147
1.0
148
0.0
149
0.0
100
AcDbLayout
  1
Layout2
 70
     1
 71
     2
 10
0.0
 20
0.0
 11
0.0
 21
0.0
 12
0.0
 22
0.0
 32
0.0
 14
0.0
 24
0.0
 34
0.0
 15
0.0
 25
0.0
 35
0.0
146
0.0
 13
0.0
 23
0.0
 33
0.0
 16
1.0
 26
0.0
 36
0.0
 17
0.0
 27
1.0
 37
0.0
 76
     0
330
23
  0
LAYOUT
  5
22
102
{ACAD_REACTORS
330
1A
102
}
330
1A
100
AcDbPlotSettings
  1

  2
none_device
  4
Letter_(8.50_x_11.00_Inches)
  6

 40
6.35
 41
6.35
 42
6.35000508
 43
6.35000508
 44
215.9
 45
279.4
 46
0.0
 47
0.0
 48
0.0
 49
0.0
140
0.0
141
0.0
142
1.0
143
1.0
 70
  1712
 72
     1
 73
     0
 74
     0
  7

 75
     0
147
1.0
148
0.0
149
0.0
100
AcDbLayout
  1
Model
 70
     1
 71
     0
 10
0.0
 20
0.0
 11
279.4
 21
215.9
 12
0.0
 22
0.0
 32
0.0
 14
0.0
 24
0.0
 34
0.0
 15
279.4
 25
215.9
 35
0.0
146
0.0
 13
0.0
 23
0.0
 33
0.0
 16
1.0
 26
0.0
 36
0.0
 17
0.0
 27
1.0
 37
0.0
 76
     0
330
1F
331
29
  0
MLINESTYLE
  5
18
102
{ACAD_REACTORS
330
17
102
}
330
17
100
AcDbMlineStyle
  2
Standard
 70
     0
  3

 62
   256
 51
90.0
 52
90.0
 71
     2
 49
0.5
 62
   256
  6
BYLAYER
 49
-0.5
 62
   256
  6
BYLAYER
  0
ACDBPLACEHOLDER
  5
F
102
{ACAD_REACTORS
330
E
102
}
330
E
  0
SCALE
  5
48
102
{ACAD_REACTORS
330
47
102
}
330
47
100
AcDbScale
 70
     0
300
1:1
140
1.0
141
1.0
290
     1
  0
SCALE
  5
49
102
{ACAD_REACTORS
330
47
102
}
330
47
100
AcDbScale
 70
     0
300
1:2
140
1.0
141
2.0
290
     0
  0
SCALE
  5
4A
102
{ACAD_REACTORS
330
47
102
}
330
47
100
AcDbScale
 70
     0
300
1:4
140
1.0
141
4.0
290
     0
  0
SCALE
  5
4B
102
{ACAD_REACTORS
330
47
102
}
330
47
100
AcDbScale
 70
     0
300
1:5
140
1.0
141
5.0
290
     0
  0
SCALE
  5
4C
102
{ACAD_REACTORS
330
47
102
}
330
47
100
AcDbScale
 70
     0
300
1:8
140
1.0
141
8.0
290
     0
  0
SCALE
  5
4D
102
{ACAD_REACTORS
330
47
102
}
330
47
100
AcDbScale
 70
     0
300
1:10
140
1.0
141
10.0
290
     0
  0
SCALE
  5
4E
102
{ACAD_REACTORS
330
47
102
}
330
47
100
AcDbScale
 70
     0
300
1:16
140
1.0
141
16.0
290
     0
  0
SCALE
  5
4F
102
{ACAD_REACTORS
330
47
102
}
330
47
100
AcDbScale
 70
     0
300
1:20
140
1.0
141
20.0
290
     0
  0
SCALE
  5
50
102
{ACAD_REACTORS
330
47
102
}
330
47
100
AcDbScale
 70
     0
300
1:30
140
1.0
141
30.0
290
     0
  0
SCALE
  5
51
102
{ACAD_REACTORS
330
47
102
}
330
47
100
AcDbScale
 70
     0
300
1:40
140
1.0
141
40.0
290
     0
  0
SCALE
  5
52
102
{ACAD_REACTORS
330
47
102
}
330
47
100
AcDbScale
 70
     0
300
1:50
140
1.0
141
50.0
290
     0
  0
SCALE
  5
53
102
{ACAD_REACTORS
330
47
102
}
330
47
100
AcDbScale
 70
     0
300
1:100
140
1.0
141
100.0
290
     0
  0
SCALE
  5
54
102
{ACAD_REACTORS
330
47
102
}
330
47
100
AcDbScale
 70
     0
300
2:1
140
2.0
141
1.0
290
     0
  0
SCALE
  5
55
102
{ACAD_REACTORS
330
47
102
}
330
47
100
AcDbScale
 70
     0
300
4:1
140
4.0
141
1.0
290
     0
  0
SCALE
  5
56
102
{ACAD_REACTORS
330
47
102
}
330
47
100
AcDbScale
 70
     0
300
8:1
140
8.0
141
1.0
290
     0
  0
SCALE
  5
57
102
{ACAD_REACTORS
330
47
102
}
330
47
100
AcDbScale
 70
     0
300
10:1
140
10.0
141
1.0
290
     0
  0
SCALE
  5
58
102
{ACAD_REACTORS
330
47
102
}
330
47
100
AcDbScale
 70
     0
300
100:1
140
100.0
141
1.0
290
     0
  0
SCALE
  5
59
102
{ACAD_REACTORS
330
47
102
}
330
47
100
AcDbScale
 70
     0
300
1/128" = 1'-0"
140
0.0078125
141
12.0
290
     0
  0
SCALE
  5
5A
102
{ACAD_REACTORS
330
47
102
}
330
47
100
AcDbScale
 70
     0
300
1/64" = 1'-0"
140
0.015625
141
12.0
290
     0
  0
SCALE
  5
5B
102
{ACAD_REACTORS
330
47
102
}
330
47
100
AcDbScale
 70
     0
300
1/32" = 1'-0"
140
0.03125
141
12.0
290
     0
  0
SCALE
  5
5C
102
{ACAD_REACTORS
330
47
102
}
330
47
100
AcDbScale
 70
     0
300
1/16" = 1'-0"
140
0.0625
141
12.0
290
     0
  0
SCALE
  5
5D
102
{ACAD_REACTORS
330
47
102
}
330
47
100
AcDbScale
 70
     0
300
3/32" = 1'-0"
140
0.09375
141
12.0
290
     0
  0
SCALE
  5
5E
102
{ACAD_REACTORS
330
47
102
}
330
47
100
AcDbScale
 70
     0
300
1/8" = 1'-0"
140
0.125
141
12.0
290
     0
  0
SCALE
  5
5F
102
{ACAD_REACTORS
330
47
102
}
330
47
100
AcDbScale
 70
     0
300
3/16" = 1'-0"
140
0.1875
141
12.0
290
     0
  0
SCALE
  5
60
102
{ACAD_REACTORS
330
47
102
}
330
47
100
AcDbScale
 70
     0
300
1/4" = 1'-0"
140
0.25
141
12.0
290
     0
  0
SCALE
  5
61
102
{ACAD_REACTORS
330
47
102
}
330
47
100
AcDbScale
 70
     0
300
3/8" = 1'-0"
140
0.375
141
12.0
290
     0
  0
SCALE
  5
62
102
{ACAD_REACTORS
330
47
102
}
330
47
100
AcDbScale
 70
     0
300
1/2" = 1'-0"
140
0.5
141
12.0
290
     0
  0
SCALE
  5
63
102
{ACAD_REACTORS
330
47
102
}
330
47
100
AcDbScale
 70
     0
300
3/4" = 1'-0"
140
0.75
141
12.0
290
     0
  0
SCALE
  5
64
102
{ACAD_REACTORS
330
47
102
}
330
47
100
AcDbScale
 70
     0
300
1" = 1'-0"
140
1.0
141
12.0
290
     0
  0
SCALE
  5
65
102
{ACAD_REACTORS
330
47
102
}
330
47
100
AcDbScale
 70
     0
300
1-1/2" = 1'-0"
140
1.5
141
12.0
290
     0
  0
SCALE
  5
66
102
{ACAD_REACTORS
330
47
102
}
330
47
100
AcDbScale
 70
     0
300
3" = 1'-0"
140
3.0
141
12.0
290
     0
  0
SCALE
  5
67
102
{ACAD_REACTORS
330
47
102
}
330
47
100
AcDbScale
 70
     0
300
6" = 1'-0"
140
6.0
141
12.0
290
     0
  0
SCALE
  5
68
102
{ACAD_REACTORS
330
47
102
}
330
47
100
AcDbScale
 70
     0
300
1'-0" = 1'-0"
140
12.0
141
12.0
290
     0
  0
ENDSEC
  0
EOF
